Les accords de base à la guitare

Quels sont les accords de base à connaitre ? Vaste question, ce cours vous détaillera les accords de base à connaitre, avec la tablature, le diagramme ainsi que le doigté.

Introduction

Chaque accord sera présenté de la manière suivante :

  • Son nom,
  • L’accord sous la forme d’une tablature et d’une grille,
  • Les différents doigtés

Pour les diagrammes :

  • Numéro 1 : Index
  • Numéro 2 : Majeur
  • Numéro 3 : Annulaire
  • Numéro 4 : Auriculaire

Voilà donc les accords qu’un débutant devrait connaitre/apprendre, je vais les classer dans deux parties :

  • Les accords Majeurs
  • Les accords Mineurs

Lien pour télécharger la liste des principaux accords :

liste_principaux_accords

Les accords Majeurs

L’accord parfait majeur ou plus simplement « accord majeur » est la première espèce de l’accord de trois notes, composé d’une fondamentale, d’une tierce majeure et d’une quinte juste.

DO Majeur (C)

L’accord sous forme d’une tablature :

e--0--------------------
b--1--------------------
g--0--------------------
d--2--------------------
a--3--------------------
E--X--------------------

L’accord sous forme de diagramme :

Les doigtés de l’accord :

  • L’index sur la corde « Si » (2ème corde) et sur la première case.
  • Le majeur sur la corde « Re » (4ème corde) et sur la seconde case.
  • L’annulaire sur la corde « La » (5ème corde) et sur la troisième case.

La corde « Mi aigu » (1ère corde) et la corde « Sol » (3ème corde) sont jouées à vide.

La corde « Mi grave » (6ème corde) ne doit pas être jouée, ou alors elle doit être étouffée.

RE Majeur (D)

L’accord sous la forme d’une tablature :

e--2--------------------
b--3--------------------
g--2--------------------
d--0--------------------
a--X--------------------
E--X--------------------

L’accord sous forme de diagramme :

Le doigté de l’accord :

  • Le majeur sur la corde « Mi aigue » (1ère corde) et sur la deuxième case.
  • L’annulaire sur la corde « Si » (2ème corde) et sur la troisième case.
  • L’index sur la corde « Sol » (3ème corde) et sur la deuxième case.

La corde « Re » (4ème corde) est jouée à vide.

Les cordes « Mi » (6ème corde) et « La » (5ème corde) ne doivent pas être jouées, ou alors elles doivent être étouffées.

MI Majeur (E)

L’accord sous la forme d’une tablature :

e--0--------------------
b--0--------------------
g--1--------------------
d--2--------------------
a--2--------------------
E--0--------------------

L’accord sous forme de diagramme :

Le doigté de l’accord :

  • L’index sur la corde « Sol » (4ème corde) et sur la première case.
  • L’annulaire sur la corde « Re » ‘5ème corde) et sur la seconde case.
  • Le majeur sur la corde « La » (5ème corde) et sur la seconde case.

Les cordes « Mi aigu » (1ère corde), « Mi » (6ème corde) et « Si » (2ème corde) doivent être jouées à vide.

FA Majeur (F)

L’accord sous la forme d’une tablature :

e--1--------------------
b--1--------------------
g--2--------------------
d--3--------------------
a--3--------------------
E--1--------------------

L’accord sous forme de diagramme :

Le doigté de l’accord :

  • L’index fait un barré sur la première case.
  • Le majeur sur la corde « Sol » (3ème corde) et sur la deuxième case.
  • L’annulaire sur la corde « La » (5ème corde) et sur la troisième case.
  • L’auriculaire sur la corde « Re » (4ème corde) et sur la troisième case.

Une astuce pour le doigté :

Faites l’accord « Mi » (Majeur) sans utiliser l’index, mais en utilisant l’auriculaire. Décalez tous les doigts d’une case vers le corps de la guitare et faites un barré avec l’index sur la première case.

Cet accord peut paraître difficile aux débutants car il contient un barré.

SOL Majeur (G)

L’accord sous la forme d’une tablature :

e--3--------------------
b--0--------------------
g--0--------------------
d--0--------------------
a--2--------------------
E--3--------------------

L’accord sous forme de diagramme :

Le doigté de l’accord :

  • L’index sur la corde « La » (5ème corde) et sur la seconde case.
  • Le majeur sur la corde « Mi » (6ème corde) et sur la troisième case.
  • L’annulaire ou l’auriculaire (à vous de voir avec lequel de ces deux doigts vous avec le plus de confort) sur la corde « Mi aigu » (1ère corde) et sur la troisième case.

LA Majeur (A)

L’accord sous la forme d’une tablature :

e--0--------------------
b--2--------------------
g--2--------------------
d--2--------------------
a--0--------------------
E--X--------------------

L’accord sous forme de diagramme :

Le doigté de l’accord :

  • L’index sur la corde « Re » (4ème corde) et sur la seconde case.
  • Le majeur sur la corde « Sol » (3ème corde) et sur la seconde case.
  • L’annulaire sur la corde « Si » (2ème corde) et sur la seconde case.

Les cordes « Mi aigu » (1ère corde), et « La » (5ème corde) sont jouées à vide.

La corde « Mi » grave (6ème corde) ne doit pas être jouée, ou alors elle doit être étouffée.

L’utilisation de l’index, du majeur et de l’annulaire (1-2-3) n’est pas obligatoire, on peut ne pas utiliser l’index, et utiliser l’auriculaire (2-3-4).

SI Majeur (B)

L’accord sous la forme d’une tablature :

e--2--------------------
b--4--------------------
g--4--------------------
d--4--------------------
a--2--------------------
E--X--------------------

L’accord sous forme de diagramme :

Le doigté de l’accord :

  • Il faut barrer la seconde case avec l’index
  • Le majeur sur la corde « Re » (4ème corde) et sur la quatrième case.
  • L’annulaire doit être sur la corde « Sol » (3ème corde) et sur la quatrième case.
  • L’auriculaire enfin doit être sur la corde « Si » (2ème corde) et sur la quatrième case.

La corde « Mi » (6ème corde) ne doit pas être jouée, ou alors elle doit être étouffée.

Les Accords Mineurs

L’accord parfait mineur ou plus simplement accord mineur est la deuxième espèce de l’accord de trois notes, composé d’une fondamentale, d’une tierce mineure et d’une quinte juste.

DO Mineur (Cm)

L’accord sous la forme d’une tablature :

e--3--------------------
b--4--------------------
g--5--------------------
d--5--------------------
a--3--------------------
E--3--------------------

L’accord sous forme de diagramme :

Le doigté de l’accord :

  • Il faut effectuer un barré à la troisième case sur toutes les cordes avec l’index.
  • Le majeur est sur la corde « Si » (2ème corde) et sur la quatrième case.
  • L’annulaire est sur la corde « Re » (4ème corde) et sur la cinquième case.
  • L’auriculaire est sur la corde « Sol » (3ème corde) et sur la cinquième case.

RE Mineur (Dm)

L’accord sous la forme d’une tablature :

e--1--------------------
b--3--------------------
g--2--------------------
d--0--------------------
a--X--------------------
E--X--------------------

L’accord sous forme de diagramme :

Le doigté de l’accord :

  • L’index sur la corde « Mi aigu » (1ère corde) et sur la première case.
  • Le majeur sur la corde « Sol » (3ème corde) et sur la seconde case.
  • L’annulaire ou l’auriculaire (si on choisit l’auriculaire, l’annulaire est en l’air) sur la corde « Si » (2ème corde) et sur la troisième case.

La corde « Mi » (6ème corde) et la corde « La » (5ème corde)ne doivent pas être jouées, ou alors elle doivent être étouffées.

MI mineur (Em)

L’accord sous la forme d’une tablature :

e--0--------------------
b--0--------------------
g--0--------------------
d--2--------------------
a--2--------------------
E--0--------------------

L’accord sous forme de diagramme :

Le doigté de l’accord :

  • L’index sur la corde « La » (5ème corde) et sur la seconde case.
  • Le majeursur la corde « Re » (4ème corde) et sur la seconde case également.

FA Mineur (Fm)

L’accord sous la forme d’une tablature :

e--1--------------------
b--1--------------------
g--1--------------------
d--3--------------------
a--3--------------------
E--1--------------------

L’accord sous forme de diagramme :

Le doigté de l’accord :

  • C’est exactement le même que pour le « Fa » (Majeur) sauf qu’il faut retirer le majeur.

SOL Mineur (Gm)

L’accord sous la forme d’une tablature :

e--3--------------------
b--3--------------------
g--3--------------------
d--5--------------------
a--5--------------------
E--3--------------------

L’accord sous forme de diagramme :

Le doigté de l’accord :

  • Le même que celui d’un « Fa » (Mineur) sauf que le barré est à la troisième case.

LA Mineur (Am)

L’accord sous la forme d’une tablature :

e--0--------------------
b--1--------------------
g--2--------------------
d--2--------------------
a--0--------------------
E--X--------------------

L’accord sous forme de diagramme :

Le doigté de l’accord :

  • L’index sur la corde « Si » (2ème corde) et sur la première case.
  • Le majeur sur la corde « Re » (4ème corde) et sur la seconde case.
  • L’annulaire sur la corde « Sol » (3ème corde) et sur la seconde case.

SI Mineur (Bm)

L’accord sous la forme d’une tablature :

e--2--------------------
b--3--------------------
g--4--------------------
d--4--------------------
a--2--------------------
E--X--------------------

L’accord sous forme de diagramme :

Le doigté de l’accord :

Comme celui d’un « Fa » (Majeur) mais décalé d’une case, et les doigts décalés également vers les cordes les plus aiguës.

Mais attention, on ne joue pas la corde « Mi » (6ème corde).

Pour en savoir plus

Vous êtes un peu plus curieux que la moyenne, et vous voulez donc savoir comment construire les accords ?

Il suffit de consulter le cours « Construction des accords » de la partie cours.

Laisser un commentaire

Votre adresse de messagerie ne sera pas publiée. Les champs obligatoires sont indiqués avec *