Le slap / Pop

Ce cours vous permettra d’acquérir les techniques du slap, pop et double thumb, généralement utilisées par les bassistes.

Définition

Le slap est une technique de percussion sur un instrument non-percussif. Bien connu par les bassistes, cette technique est également utilisée sur d’autres instruments :

  • à corde : guitare, contrebasse, …
  • à vent : saxo, clarinette…

Comment réaliser cette technique

Le Slap

Il consiste à fouetter une corde avec le pouce pour créer un son claquant.

Le pouce tendu (comme pour dire « bien joué »), la main ouverte ou fermée (tout dépend des personnes), le poignet mobile et l’avant-bras figé (mais pas raide). Tout le monde a déjà vu un film de gladiateur où le public choisit la vie ou la mort, et bien c’est le même mouvement.

Vous pouvez enchainer une dizaine de fois « la vie »/ »la mort » pour visualiser le mouvement.

Le but est d’utiliser le poignet et non le coude (normalement vous pourrez donc faire une rotation d’environ 90° avant que le coude ne pivote). La frappe se fait avec la tranche du pouce, au niveau de la phalange, sur la dernière frette de la guitare/basse. Le pouce doit être à environ 45° par rapport à la corde et venir la fouetter brièvement afin de ne pas amortir celle-ci.

Le pop

Il consiste à tirer une corde pour créer un son claquant à la relâche.

Il faut garder la même position que pour le slap afin de pouvoir enchainer les deux.

  • Mettez un doigt sous une corde et tirez-la vers le haut pour provoquer une tension (attention à ne pas tirer trop fort sous peine de casse).
  • Relâchez-la instantanément pour la laisser claquer la frette.

Le double thumb

Il consiste à enchainer un slap avec le pouce et un pop avec le pouce. Une fois le slap effectué, glissez immédiatement le pouce sous la corde pour effectuer un pop. Cette technique permet de gagner en vitesse.

Exercices

Enchaînement des cordes à vides en slap puis en pop. Une corde après l’autre dans un premier temps :

E--------------0-----
B-----------0--------
G--------0-----------
D-----0--------------
A--0-----------------
E0-------------------

Puis en saut de corde

E--------------0-----
B----------0---------
G------0-----0-------
D--0-----0-----------
A----0---------------
E0-------------------

Enchaînement du slap et du pop à l’octave.

E--------------------------------------------------------------
B--------------------------------------------6-6-6-6---8-8-8-8-
G-----------------------5-5-5-5---7-7-7-7----------------------
D--5-5-5-5---8-8-8-8------------------------3-3-3-3---5-5-5-5--
A----------------------3-3-3-3---5-5-5-5-----------------------
E-3-3-3-3---6-6-6-6--------------------------------------------

Laisser un commentaire

Votre adresse de messagerie ne sera pas publiée. Les champs obligatoires sont indiqués avec *